  0
SECTION
  2
HEADER
  9
$ACADVER
  1
AC1015
  9
$ACADMAINTVER
 70
     6
  9
$DWGCODEPAGE
  3
ANSI_1254
  9
$INSBASE
 10
0.0
 20
0.0
 30
0.0
  9
$EXTMIN
 10
0.0
 20
0.0
 30
0.0
  9
$EXTMAX
 10
279.4
 20
215.9
 30
0.0
  9
$LIMMIN
 10
0.0
 20
0.0
  9
$LIMMAX
 10
279.4
 20
215.9
  9
$ORTHOMODE
 70
     0
  9
$REGENMODE
 70
     1
  9
$FILLMODE
 70
     1
  9
$QTEXTMODE
 70
     0
  9
$MIRRTEXT
 70
     1
  9
$LTSCALE
 40
1.0
  9
$ATTMODE
 70
     1
  9
$TEXTSIZE
 40
3.5
  9
$TRACEWID
 40
1.0
  9
$TEXTSTYLE
  7
Standard
  9
$CLAYER
  8
0
  9
$CELTYPE
  6
ByLayer
  9
$CECOLOR
 62
   256
  9
$CELTSCALE
 40
1.0
  9
$DISPSILH
 70
     0
  9
$DIMSCALE
 40
1.0
  9
$DIMASZ
 40
3.5
  9
$DIMEXO
 40
1.0
  9
$DIMDLI
 40
3.75
  9
$DIMRND
 40
0.0
  9
$DIMDLE
 40
0.0
  9
$DIMEXE
 40
1.0
  9
$DIMTP
 40
0.0
  9
$DIMTM
 40
0.0
  9
$DIMTXT
 40
3.5
  9
$DIMCEN
 40
2.5
  9
$DIMTSZ
 40
0.0
  9
$DIMTOL
 70
     0
  9
$DIMLIM
 70
     0
  9
$DIMTIH
 70
     1
  9
$DIMTOH
 70
     1
  9
$DIMSE1
 70
     0
  9
$DIMSE2
 70
     0
  9
$DIMTAD
 70
     1
  9
$DIMZIN
 70
     0
  9
$DIMBLK
  1

  9
$DIMASO
 70
     1
  9
$DIMSHO
 70
     1
  9
$DIMPOST
  1

  9
$DIMAPOST
  1

  9
$DIMALT
 70
     0
  9
$DIMALTD
 70
     3
  9
$DIMALTF
 40
0.0393700787
  9
$DIMLFAC
 40
1.0
  9
$DIMTOFL
 70
     1
  9
$DIMTVP
 40
0.0
  9
$DIMTIX
 70
     0
  9
$DIMSOXD
 70
     0
  9
$DIMSAH
 70
     0
  9
$DIMBLK1
  1

  9
$DIMBLK2
  1

  9
$DIMSTYLE
  2
ISO-25
  9
$DIMCLRD
 70
     0
  9
$DIMCLRE
 70
     0
  9
$DIMCLRT
 70
     0
  9
$DIMTFAC
 40
1.0
  9
$DIMGAP
 40
1.524
  9
$DIMJUST
 70
     0
  9
$DIMSD1
 70
     0
  9
$DIMSD2
 70
     0
  9
$DIMTOLJ
 70
     0
  9
$DIMTZIN
 70
     0
  9
$DIMALTZ
 70
     0
  9
$DIMALTTZ
 70
     0
  9
$DIMUPT
 70
     0
  9
$DIMDEC
 70
     2
  9
$DIMTDEC
 70
     2
  9
$DIMALTU
 70
     2
  9
$DIMALTTD
 70
     3
  9
$DIMTXSTY
  7
Standard
  9
$DIMAUNIT
 70
     0
  9
$DIMADEC
 70
     2
  9
$DIMALTRND
 40
0.0
  9
$DIMAZIN
 70
     0
  9
$DIMDSEP
 70
    44
  9
$DIMATFIT
 70
     3
  9
$DIMFRAC
 70
     0
  9
$DIMLDRBLK
  1

  9
$DIMLUNIT
 70
     2
  9
$DIMLWD
 70
    -2
  9
$DIMLWE
 70
    -2
  9
$DIMTMOVE
 70
     0
  9
$LUNITS
 70
     2
  9
$LUPREC
 70
     2
  9
$SKETCHINC
 40
1.0
  9
$FILLETRAD
 40
10.0
  9
$AUNITS
 70
     0
  9
$AUPREC
 70
     2
  9
$MENU
  1
.
  9
$ELEVATION
 40
0.0
  9
$PELEVATION
 40
0.0
  9
$THICKNESS
 40
0.0
  9
$LIMCHECK
 70
     0
  9
$CHAMFERA
 40
0.0
  9
$CHAMFERB
 40
0.0
  9
$CHAMFERC
 40
0.0
  9
$CHAMFERD
 40
0.0
  9
$SKPOLY
 70
     0
  9
$TDCREATE
 40
2458985.69100169
  9
$TDUCREATE
 40
2458985.56600169
  9
$TDUPDATE
 40
2458985.691002002
  9
$TDUUPDATE
 40
2458985.566002002
  9
$TDINDWG
 40
0.0000000116
  9
$TDUSRTIMER
 40
0.0000000116
  9
$USRTIMER
 70
     1
  9
$ANGBASE
 50
0.0
  9
$ANGDIR
 70
     0
  9
$PDMODE
 70
     0
  9
$PDSIZE
 40
-1.0
  9
$PLINEWID
 40
0.0
  9
$SPLFRAME
 70
     0
  9
$SPLINETYPE
 70
     6
  9
$SPLINESEGS
 70
     8
  9
$HANDSEED
  5
CB
  9
$SURFTAB1
 70
     6
  9
$SURFTAB2
 70
     6
  9
$SURFTYPE
 70
     6
  9
$SURFU
 70
     6
  9
$SURFV
 70
     6
  9
$UCSBASE
  2

  9
$UCSNAME
  2

  9
$UCSORG
 10
0.0
 20
0.0
 30
0.0
  9
$UCSXDIR
 10
1.0
 20
0.0
 30
0.0
  9
$UCSYDIR
 10
0.0
 20
1.0
 30
0.0
  9
$UCSORTHOREF
  2

  9
$UCSORTHOVIEW
 70
     0
  9
$UCSORGTOP
 10
0.0
 20
0.0
 30
0.0
  9
$UCSORGBOTTOM
 10
0.0
 20
0.0
 30
0.0
  9
$UCSORGLEFT
 10
0.0
 20
0.0
 30
0.0
  9
$UCSORGRIGHT
 10
0.0
 20
0.0
 30
0.0
  9
$UCSORGFRONT
 10
0.0
 20
0.0
 30
0.0
  9
$UCSORGBACK
 10
0.0
 20
0.0
 30
0.0
  9
$PUCSBASE
  2

  9
$PUCSNAME
  2

  9
$PUCSORG
 10
0.0
 20
0.0
 30
0.0
  9
$PUCSXDIR
 10
1.0
 20
0.0
 30
0.0
  9
$PUCSYDIR
 10
0.0
 20
1.0
 30
0.0
  9
$PUCSORTHOREF
  2

  9
$PUCSORTHOVIEW
 70
     0
  9
$PUCSORGTOP
 10
0.0
 20
0.0
 30
0.0
  9
$PUCSORGBOTTOM
 10
0.0
 20
0.0
 30
0.0
  9
$PUCSORGLEFT
 10
0.0
 20
0.0
 30
0.0
  9
$PUCSORGRIGHT
 10
0.0
 20
0.0
 30
0.0
  9
$PUCSORGFRONT
 10
0.0
 20
0.0
 30
0.0
  9
$PUCSORGBACK
 10
0.0
 20
0.0
 30
0.0
  9
$USERI1
 70
     0
  9
$USERI2
 70
     0
  9
$USERI3
 70
     0
  9
$USERI4
 70
     0
  9
$USERI5
 70
     0
  9
$USERR1
 40
0.0
  9
$USERR2
 40
0.0
  9
$USERR3
 40
0.0
  9
$USERR4
 40
0.0
  9
$USERR5
 40
0.0
  9
$WORLDVIEW
 70
     1
  9
$SHADEDGE
 70
     3
  9
$SHADEDIF
 70
    70
  9
$TILEMODE
 70
     1
  9
$MAXACTVP
 70
    64
  9
$PINSBASE
 10
0.0
 20
0.0
 30
0.0
  9
$PLIMCHECK
 70
     0
  9
$PEXTMIN
 10
1.0000000000E+20
 20
1.0000000000E+20
 30
1.0000000000E+20
  9
$PEXTMAX
 10
-1.0000000000E+20
 20
-1.0000000000E+20
 30
-1.0000000000E+20
  9
$PLIMMIN
 10
0.0
 20
0.0
  9
$PLIMMAX
 10
420.0
 20
297.0
  9
$UNITMODE
 70
     0
  9
$VISRETAIN
 70
     1
  9
$PLINEGEN
 70
     0
  9
$PSLTSCALE
 70
     1
  9
$TREEDEPTH
 70
  3020
  9
$CMLSTYLE
  2
Standard
  9
$CMLJUST
 70
     0
  9
$CMLSCALE
 40
20.0
  9
$PROXYGRAPHICS
 70
     1
  9
$MEASUREMENT
 70
     1
  9
$CELWEIGHT
370
    -1
  9
$ENDCAPS
280
     0
  9
$JOINSTYLE
280
     0
  9
$LWDISPLAY
290
     1
  9
$INSUNITS
 70
     4
  9
$HYPERLINKBASE
  1

  9
$STYLESHEET
  1

  9
$XEDIT
290
     1
  9
$CEPSNTYPE
380
     0
  9
$PSTYLEMODE
290
     1
  9
$FINGERPRINTGUID
  2
{ad281476-bbd4-4980-809b-5f79d76b7ea4}
  9
$VERSIONGUID
  2
{FAEB1C32-E019-11D5-929B-00C0DF256EC4}
  9
$EXTNAMES
290
     1
  9
$PSVPSCALE
 40
0.0
  9
$OLESTARTUP
290
     0
  0
ENDSEC
  0
SECTION
  2
CLASSES
  0
CLASS
  1
ACDBDICTIONARYWDFLT
  2
AcDbDictionaryWithDefault
  3
ObjectDBX Classes
 90
        0
280
     0
281
     0
  0
CLASS
  1
VISUALSTYLE
  2
AcDbVisualStyle
  3
ObjectDBX Classes
 90
     4095
280
     0
281
     0
  0
CLASS
  1
MATERIAL
  2
AcDbMaterial
  3
ObjectDBX Classes
 90
     1153
280
     0
281
     0
  0
CLASS
  1
SCALE
  2
AcDbScale
  3
ObjectDBX Classes
 90
     1153
280
     0
281
     0
  0
CLASS
  1
TABLESTYLE
  2
AcDbTableStyle
  3
ObjectDBX Classes
 90
     4095
280
     0
281
     0
  0
CLASS
  1
MLEADERSTYLE
  2
AcDbMLeaderStyle
  3
ACDB_MLEADERSTYLE_CLASS
 90
     4095
280
     0
281
     0
  0
CLASS
  1
SUN
  2
AcDbSun
  3
SCENEOE
 90
     1153
280
     0
281
     0
  0
CLASS
  1
ACDBPLACEHOLDER
  2
AcDbPlaceHolder
  3
ObjectDBX Classes
 90
        0
280
     0
281
     0
  0
CLASS
  1
LAYOUT
  2
AcDbLayout
  3
ObjectDBX Classes
 90
        0
280
     0
281
     0
  0
ENDSEC
  0
SECTION
  2
TABLES
  0
TABLE
  2
VPORT
  5
8
330
0
100
AcDbSymbolTable
 70
     1
  0
VPORT
  5
29
330
8
100
AcDbSymbolTableRecord
100
AcDbViewportTableRecord
  2
*Active
 70
     0
 10
0.0
 20
0.0
 11
1.0
 21
1.0
 12
139.7
 22
107.95
 13
0.0
 23
0.0
 14
10.0
 24
10.0
 15
10.0
 25
10.0
 16
0.0
 26
0.0
 36
1.0
 17
0.0
 27
0.0
 37
0.0
 40
215.9
 41
1.2941176471
 42
50.0
 43
0.0
 44
0.0
 50
0.0
 51
0.0
 71
     0
 72
  2000
 73
     1
 74
     3
 75
     0
 76
     0
 77
     0
 78
     0
281
     0
 65
     1
110
0.0
120
0.0
130
0.0
111
1.0
121
0.0
131
0.0
112
0.0
122
1.0
132
0.0
 79
     0
146
0.0
  0
ENDTAB
  0
TABLE
  2
LTYPE
  5
5
330
0
100
AcDbSymbolTable
 70
     6
  0
LTYPE
  5
14
330
5
100
AcDbSymbolTableRecord
100
AcDbLinetypeTableRecord
  2
ByBlock
 70
     0
  3

 72
    65
 73
     0
 40
0.0
  0
LTYPE
  5
15
330
5
100
AcDbSymbolTableRecord
100
AcDbLinetypeTableRecord
  2
ByLayer
 70
     0
  3

 72
    65
 73
     0
 40
0.0
  0
LTYPE
  5
16
330
5
100
AcDbSymbolTableRecord
100
AcDbLinetypeTableRecord
  2
Continuous
 70
     0
  3
Solid line
 72
    65
 73
     0
 40
0.0
  0
LTYPE
  5
6E
330
5
100
AcDbSymbolTableRecord
100
AcDbLinetypeTableRecord
  2
HIDDEN
 70
     0
  3
Hidden __ __ __ __ __ __ __ __ __ __ __ __ __ __
 72
    65
 73
     2
 40
1.905
 49
1.27
 74
     0
 49
-0.635
 74
     0
  0
LTYPE
  5
6F
330
5
100
AcDbSymbolTableRecord
100
AcDbLinetypeTableRecord
  2
PHANTOM
 70
     0
  3
Phantom ______  __  __  ______  __  __  ______
 72
    65
 73
     6
 40
12.7
 49
6.35
 74
     0
 49
-1.27
 74
     0
 49
1.27
 74
     0
 49
-1.27
 74
     0
 49
1.27
 74
     0
 49
-1.27
 74
     0
  0
LTYPE
  5
70
330
5
100
AcDbSymbolTableRecord
100
AcDbLinetypeTableRecord
  2
CENTER
 70
     0
  3
Center ____ _ ____ _ ____ _ ____ _ ____ _ ____
 72
    65
 73
     4
 40
10.16
 49
6.35
 74
     0
 49
-1.27
 74
     0
 49
1.27
 74
     0
 49
-1.27
 74
     0
  0
LTYPE
  5
71
330
5
100
AcDbSymbolTableRecord
100
AcDbLinetypeTableRecord
  2
CENTERX2
 70
     0
  3
Center (2x) ________  __  ________  __  _____
 72
    65
 73
     4
 40
20.32
 49
12.7
 74
     0
 49
-2.54
 74
     0
 49
2.54
 74
     0
 49
-2.54
 74
     0
  0
LTYPE
  5
72
330
5
100
AcDbSymbolTableRecord
100
AcDbLinetypeTableRecord
  2
DOT2
 70
     0
  3
Dot (.5x) ........................................
 72
    65
 73
     2
 40
0.635
 49
0.0
 74
     0
 49
-0.635
 74
     0
  0
ENDTAB
  0
TABLE
  2
LAYER
  5
2
330
0
100
AcDbSymbolTable
 70
    17
  0
LAYER
  5
10
330
2
100
AcDbSymbolTableRecord
100
AcDbLayerTableRecord
  2
0
 70
     0
 62
     7
  6
Continuous
370
    -3
390
F
  0
LAYER
  5
73
330
2
100
AcDbSymbolTableRecord
100
AcDbLayerTableRecord
  2
FORMAT
 70
     0
 62
     7
  6
Continuous
370
    -3
390
F
  0
LAYER
  5
74
330
2
100
AcDbSymbolTableRecord
100
AcDbLayerTableRecord
  2
YARDIMCI_GEOMETRI
 70
     0
 62
    -6
  6
Continuous
290
     0
370
    -3
390
F
  0
LAYER
  5
75
330
2
100
AcDbSymbolTableRecord
100
AcDbLayerTableRecord
  2
SAYFA_CERCEVESI
 70
     0
 62
     7
  6
Continuous
370
    25
390
F
  0
LAYER
  5
76
330
2
100
AcDbSymbolTableRecord
100
AcDbLayerTableRecord
  2
ANTET
 70
     0
 62
     7
  6
Continuous
370
    -3
390
F
  0
LAYER
  5
77
330
2
100
AcDbSymbolTableRecord
100
AcDbLayerTableRecord
  2
OLCU
 70
     0
 62
   150
  6
Continuous
370
    -3
390
F
  0
LAYER
  5
78
330
2
100
AcDbSymbolTableRecord
100
AcDbLayerTableRecord
  2
METIN
 70
     0
 62
    96
  6
Continuous
370
    -3
390
F
  0
LAYER
  5
79
330
2
100
AcDbSymbolTableRecord
100
AcDbLayerTableRecord
  2
BALON
 70
     0
 62
     5
  6
Continuous
370
    -3
390
F
  0
LAYER
  5
7A
330
2
100
AcDbSymbolTableRecord
100
AcDbLayerTableRecord
  2
VURGU
 70
     0
 62
     7
  6
Continuous
370
    -3
390
F
  0
LAYER
  5
7B
330
2
100
AcDbSymbolTableRecord
100
AcDbLayerTableRecord
  2
SILIK
 70
     0
 62
     7
  6
Continuous
370
    -3
390
F
  0
LAYER
  5
7C
330
2
100
AcDbSymbolTableRecord
100
AcDbLayerTableRecord
  2
MODEL
 70
     0
 62
     7
  6
Continuous
370
    -3
390
F
  0
LAYER
  5
7D
330
2
100
AcDbSymbolTableRecord
100
AcDbLayerTableRecord
  2
DETAYLANDıRMA
 70
     0
 62
   190
  6
Continuous
370
    -3
390
F
  0
LAYER
  5
7E
330
2
100
AcDbSymbolTableRecord
100
AcDbLayerTableRecord
  2
TOLERANS
 70
     0
 62
   230
  6
Continuous
370
    -3
390
F
  0
LAYER
  5
7F
330
2
100
AcDbSymbolTableRecord
100
AcDbLayerTableRecord
  2
MERKEZ_CIZGILERI
 70
     0
 62
    30
  6
Continuous
370
    -3
390
F
  0
LAYER
  5
80
330
2
100
AcDbSymbolTableRecord
100
AcDbLayerTableRecord
  2
KESIT-DETAY_CIZGILERI
 70
     0
 62
     7
  6
Continuous
370
    -3
390
F
  0
LAYER
  5
81
330
2
100
AcDbSymbolTableRecord
100
AcDbLayerTableRecord
  2
\U+041E\U+0421\U+0415\U+0412\U+042B\U+0415
 70
     0
 62
     7
  6
Continuous
370
    -3
390
F
  0
LAYER
  5
82
330
2
100
AcDbSymbolTableRecord
100
AcDbLayerTableRecord
  2
\U+0412\U+041E\U+0414\U+042F\U+041D\U+042B\U+0415_\U+0417\U+041D\U+0410\U+041A\U+0418
 70
     0
 62
    11
  6
Continuous
370
    -3
390
F
  0
ENDTAB
  0
TABLE
  2
STYLE
  5
3
330
0
100
AcDbSymbolTable
 70
     1
  0
STYLE
  5
11
330
3
100
AcDbSymbolTableRecord
100
AcDbTextStyleTableRecord
  2
Standard
 70
     0
 40
0.0
 41
1.0
 50
0.0
 71
     0
 42
3.5
  3
txt
  4

  0
ENDTAB
  0
TABLE
  2
VIEW
  5
6
330
0
100
AcDbSymbolTable
 70
     0
  0
ENDTAB
  0
TABLE
  2
UCS
  5
7
330
0
100
AcDbSymbolTable
 70
     0
  0
ENDTAB
  0
TABLE
  2
APPID
  5
9
330
0
100
AcDbSymbolTable
 70
     1
  0
APPID
  5
12
330
9
100
AcDbSymbolTableRecord
100
AcDbRegAppTableRecord
  2
ACAD
 70
     0
  0
ENDTAB
  0
TABLE
  2
DIMSTYLE
  5
A
330
0
100
AcDbSymbolTable
 70
     1
100
AcDbDimStyleTable
  0
DIMSTYLE
105
27
330
A
100
AcDbSymbolTableRecord
100
AcDbDimStyleTableRecord
  2
ISO-25
 70
     0
 41
2.5
 42
0.625
 43
3.75
 44
1.25
 73
     0
 74
     0
 77
     1
 78
     8
140
2.5
141
2.5
143
0.0393700787
147
0.625
171
     3
172
     1
178
     0
271
     2
272
     2
274
     3
278
    44
283
     0
284
     8
340
11
  0
ENDTAB
  0
TABLE
  2
BLOCK_RECORD
  5
1
330
0
100
AcDbSymbolTable
 70
     3
  0
BLOCK_RECORD
  5
1F
330
1
100
AcDbSymbolTableRecord
100
AcDbBlockTableRecord
  2
*Model_Space
340
22
  0
BLOCK_RECORD
  5
1B
330
1
100
AcDbSymbolTableRecord
100
AcDbBlockTableRecord
  2
*Paper_Space
340
1E
  0
BLOCK_RECORD
  5
23
330
1
100
AcDbSymbolTableRecord
100
AcDbBlockTableRecord
  2
*Paper_Space0
340
26
  0
BLOCK_RECORD
  5
88
330
1
100
AcDbSymbolTableRecord
100
AcDbBlockTableRecord
  2
SW_CENTERMARKSYMBOL_0
340
0
102
{BLKREFS
331
93
102
}
  0
BLOCK_RECORD
  5
9C
330
1
100
AcDbSymbolTableRecord
100
AcDbBlockTableRecord
  2
SW_CENTERMARKSYMBOL_1
340
0
102
{BLKREFS
331
A7
102
}
  0
ENDTAB
  0
ENDSEC
  0
SECTION
  2
BLOCKS
  0
BLOCK
  5
20
330
1F
100
AcDbEntity
  8
0
100
AcDbBlockBegin
  2
*Model_Space
 70
     0
 10
0.0
 20
0.0
 30
0.0
  3
*Model_Space
  1

  0
ENDBLK
  5
21
330
1F
100
AcDbEntity
  8
0
100
AcDbBlockEnd
  0
BLOCK
  5
1C
330
1B
100
AcDbEntity
 67
     1
  8
0
100
AcDbBlockBegin
  2
*Paper_Space
 70
     0
 10
0.0
 20
0.0
 30
0.0
  3
*Paper_Space
  1

  0
ENDBLK
  5
1D
330
1B
100
AcDbEntity
 67
     1
  8
0
100
AcDbBlockEnd
  0
BLOCK
  5
24
330
23
100
AcDbEntity
  8
0
100
AcDbBlockBegin
  2
*Paper_Space0
 70
     0
 10
0.0
 20
0.0
 30
0.0
  3
*Paper_Space0
  1

  0
ENDBLK
  5
25
330
23
100
AcDbEntity
  8
0
100
AcDbBlockEnd
  0
BLOCK
  5
89
330
88
100
AcDbEntity
  8
0
100
AcDbBlockBegin
  2
SW_CENTERMARKSYMBOL_0
 70
     0
 10
0.0
 20
0.0
 30
0.0
  3
SW_CENTERMARKSYMBOL_0
  1

  0
LINE
  5
8B
330
88
100
AcDbEntity
  8
FORMAT
 62
     0
100
AcDbLine
 10
0.0
 20
0.0
 30
0.0
 11
2.5
 21
0.0
 31
0.0
  0
LINE
  5
8C
330
88
100
AcDbEntity
  8
FORMAT
 62
     0
100
AcDbLine
 10
0.0
 20
0.0
 30
0.0
 11
0.0
 21
2.5
 31
0.0
  0
LINE
  5
8D
330
88
100
AcDbEntity
  8
FORMAT
 62
     0
100
AcDbLine
 10
0.0
 20
0.0
 30
0.0
 11
-2.5
 21
0.0
 31
0.0
  0
LINE
  5
8E
330
88
100
AcDbEntity
  8
FORMAT
 62
     0
100
AcDbLine
 10
0.0
 20
0.0
 30
0.0
 11
0.0
 21
-2.5
 31
0.0
  0
LINE
  5
8F
330
88
100
AcDbEntity
  8
FORMAT
 62
     0
100
AcDbLine
 10
5.0
 20
0.0
 30
0.0
 11
102.5
 21
0.0
 31
0.0
  0
LINE
  5
90
330
88
100
AcDbEntity
  8
FORMAT
 62
     0
100
AcDbLine
 10
0.0
 20
5.0
 30
0.0
 11
0.0
 21
102.5
 31
0.0
  0
LINE
  5
91
330
88
100
AcDbEntity
  8
FORMAT
 62
     0
100
AcDbLine
 10
-5.0
 20
0.0
 30
0.0
 11
-102.5
 21
0.0
 31
0.0
  0
LINE
  5
92
330
88
100
AcDbEntity
  8
FORMAT
 62
     0
100
AcDbLine
 10
0.0
 20
-5.0
 30
0.0
 11
0.0
 21
-102.5
 31
0.0
  0
ENDBLK
  5
8A
330
88
100
AcDbEntity
  8
0
100
AcDbBlockEnd
  0
BLOCK
  5
9D
330
9C
100
AcDbEntity
  8
0
100
AcDbBlockBegin
  2
SW_CENTERMARKSYMBOL_1
 70
     0
 10
0.0
 20
0.0
 30
0.0
  3
SW_CENTERMARKSYMBOL_1
  1

  0
LINE
  5
9F
330
9C
100
AcDbEntity
  8
FORMAT
 62
     0
100
AcDbLine
 10
0.0
 20
0.0
 30
0.0
 11
0.0
 21
2.5
 31
0.0
  0
LINE
  5
A0
330
9C
100
AcDbEntity
  8
FORMAT
 62
     0
100
AcDbLine
 10
0.0
 20
0.0
 30
0.0
 11
-2.5
 21
0.0
 31
0.0
  0
LINE
  5
A1
330
9C
100
AcDbEntity
  8
FORMAT
 62
     0
100
AcDbLine
 10
0.0
 20
0.0
 30
0.0
 11
0.0
 21
-2.5
 31
0.0
  0
LINE
  5
A2
330
9C
100
AcDbEntity
  8
FORMAT
 62
     0
100
AcDbLine
 10
0.0
 20
0.0
 30
0.0
 11
2.5
 21
0.0
 31
0.0
  0
LINE
  5
A3
330
9C
100
AcDbEntity
  8
FORMAT
 62
     0
100
AcDbLine
 10
0.0
 20
5.0
 30
0.0
 11
0.0
 21
34.0
 31
0.0
  0
LINE
  5
A4
330
9C
100
AcDbEntity
  8
FORMAT
 62
     0
100
AcDbLine
 10
-5.0
 20
0.0
 30
0.0
 11
-34.0
 21
0.0
 31
0.0
  0
LINE
  5
A5
330
9C
100
AcDbEntity
  8
FORMAT
 62
     0
100
AcDbLine
 10
0.0
 20
-5.0
 30
0.0
 11
0.0
 21
-34.0
 31
0.0
  0
LINE
  5
A6
330
9C
100
AcDbEntity
  8
FORMAT
 62
     0
100
AcDbLine
 10
5.0
 20
0.0
 30
0.0
 11
34.0
 21
0.0
 31
0.0
  0
ENDBLK
  5
9E
330
9C
100
AcDbEntity
  8
0
100
AcDbBlockEnd
  0
ENDSEC
  0
SECTION
  2
ENTITIES
  0
LINE
  5
83
330
1F
100
AcDbEntity
  8
0
  6
Continuous
 62
     7
370
    25
100
AcDbLine
 10
106.6729137511
 20
43.7753276765
 30
0.0
 11
106.6729137511
 21
-52.2781310738
 31
0.0
  0
LINE
  5
84
330
1F
100
AcDbEntity
  8
0
  6
Continuous
 62
     7
370
    25
100
AcDbLine
 10
169.6729147644
 20
-52.2781310738
 30
0.0
 11
169.6729147644
 21
43.778568679
 31
0.0
  0
CIRCLE
  5
85
330
1F
100
AcDbEntity
  8
0
  6
Continuous
 62
     7
370
    25
100
AcDbCircle
 10
138.1729142578
 20
138.7218685686
 30
0.0
 40
88.10000000000002
  0
CIRCLE
  5
86
330
1F
100
AcDbEntity
  8
0
  6
Continuous
 62
     7
370
    25
100
AcDbCircle
 10
138.1729142578
 20
138.7218685686
 30
0.0
 40
100.0
  0
LINE
  5
87
330
1F
100
AcDbEntity
  8
0
  6
Continuous
 62
     7
370
    25
100
AcDbLine
 10
169.6729147644
 20
-52.2781310738
 30
0.0
 11
106.6729137511
 21
-52.2781310738
 31
0.0
  0
INSERT
  5
93
330
1F
100
AcDbEntity
  8
FORMAT
 62
     7
100
AcDbBlockReference
  2
SW_CENTERMARKSYMBOL_0
 10
138.1729142578
 20
138.7218685686
 30
0.0
  0
LINE
  5
94
330
1F
100
AcDbEntity
  8
0
  6
Continuous
 62
     7
370
    25
100
AcDbLine
 10
238.1729157479
 20
351.3972007919
 30
0.0
 11
238.1729157479
 21
832.3972069908
 31
0.0
  0
LINE
  5
95
330
1F
100
AcDbEntity
  8
0
  6
Continuous
 62
     7
370
    25
100
AcDbLine
 10
38.1729127676
 20
832.3972069908
 30
0.0
 11
38.1729127676
 21
351.3972007919
 31
0.0
  0
CIRCLE
  5
96
330
1F
100
AcDbEntity
  8
0
  6
Continuous
 62
     7
370
    25
100
AcDbCircle
 10
138.1729142578
 20
591.8972038913
 30
0.0
 40
27.70000000000005
  0
CIRCLE
  5
97
330
1F
100
AcDbEntity
  8
0
  6
Continuous
 62
     7
370
    25
100
AcDbCircle
 10
138.1729142578
 20
591.8972038913
 30
0.0
 40
31.5
  0
LINE
  5
98
330
1F
100
AcDbEntity
  8
0
  6
Continuous
 62
     7
370
    25
100
AcDbLine
 10
138.1729142578
 20
832.3972069908
 30
0.0
 11
238.1729157479
 21
832.3972069908
 31
0.0
  0
LINE
  5
99
330
1F
100
AcDbEntity
  8
0
  6
Continuous
 62
     7
370
    25
100
AcDbLine
 10
38.1729127676
 20
832.3972069908
 30
0.0
 11
138.1729142578
 21
832.3972069908
 31
0.0
  0
LINE
  5
9A
330
1F
100
AcDbEntity
  8
0
  6
Continuous
 62
     7
370
    25
100
AcDbLine
 10
138.1729142578
 20
351.3972007919
 30
0.0
 11
238.1729157479
 21
351.3972007919
 31
0.0
  0
LINE
  5
9B
330
1F
100
AcDbEntity
  8
0
  6
Continuous
 62
     7
370
    25
100
AcDbLine
 10
38.1729127676
 20
351.3972007919
 30
0.0
 11
138.1729142578
 21
351.3972007919
 31
0.0
  0
INSERT
  5
A7
330
1F
100
AcDbEntity
  8
FORMAT
100
AcDbBlockReference
  2
SW_CENTERMARKSYMBOL_1
 10
138.1729142578
 20
591.8972038913
 30
0.0
  0
LINE
  5
A8
330
1F
100
AcDbEntity
  8
0
  6
Continuous
 62
     7
370
    25
100
AcDbLine
 10
-126.0193117483
 20
238.7218700587
 30
0.0
 11
-607.0193179472
 21
238.7218700587
 31
0.0
  0
LINE
  5
A9
330
1F
100
AcDbEntity
  8
0
  6
Continuous
 62
     7
370
    25
100
AcDbLine
 10
-335.0417629404
 20
38.7218670785
 30
0.0
 11
-126.0193117483
 21
38.7218670785
 31
0.0
  0
LINE
  5
AA
330
1F
100
AcDbEntity
  8
0
  6
Continuous
 62
     7
370
    25
100
AcDbLine
 10
-607.0193179472
 20
38.7218670785
 30
0.0
 11
-398.0193153544
 21
38.7218670785
 31
0.0
  0
LINE
  5
AB
330
1F
100
AcDbEntity
  8
0
  6
Continuous
 62
     7
370
    25
100
AcDbLine
 10
-398.0193153544
 20
38.7218670785
 30
0.0
 11
-398.0193153544
 21
-52.2781310738
 31
0.0
  0
LINE
  5
AC
330
1F
100
AcDbEntity
  8
0
  6
Continuous
 62
     7
370
    25
100
AcDbLine
 10
-335.0193143411
 20
-52.2781310738
 30
0.0
 11
-335.0193143411
 21
38.7288706242
 31
0.0
  0
SPLINE
  5
AD
330
1F
100
AcDbEntity
  8
0
  6
Continuous
 62
     7
370
    25
100
AcDbSpline
210
0.0
220
0.0
230
1.0
 70
     8
 71
     3
 72
    27
 73
    23
 74
     0
 42
0.000000001
 43
0.00000001
 40
0.0
 40
0.0
 40
0.0
 40
0.0
 40
0.0029427019376494
 40
0.0560246455202499
 40
0.106297614158144
 40
0.1579637989466978
 40
0.2095074547447426
 40
0.2624336747523754
 40
0.3160010386817869
 40
0.37112810934577
 40
0.4244150472225756
 40
0.4793953699933989
 40
0.53026801257156
 40
0.5826655949121569
 40
0.6328487016294845
 40
0.6843826230037136
 40
0.7365627419960801
 40
0.7901591309230949
 40
0.8439968946055836
 40
0.8994593037543462
 40
0.9490426771065322
 40
1.0
 40
1.0
 40
1.0
 40
1.0
 10
-335.0417629404198
 20
38.72890787715265
 30
0.0
 10
-335.0343495719144
 20
38.72658200922158
 30
0.0
 10
-334.8932101186411
 20
38.68230096101309
 30
0.0
 10
-335.4145850517427
 20
38.84688668633081
 30
0.0
 10
-336.6489638306052
 20
39.22707743757191
 30
0.0
 10
-338.7247982191606
 20
39.83579255087454
 30
0.0
 10
-341.5328782410023
 20
40.59438320056343
 30
0.0
 10
-345.0447716301742
 20
41.43771426778531
 30
0.0
 10
-349.2347406448262
 20
42.28535158268794
 30
0.0
 10
-353.9456211143773
 20
43.02530627878271
 30
0.0
 10
-359.0831115562901
 20
43.56980997562518
 30
0.0
 10
-364.322502862907
 20
43.83641051776203
 30
0.0
 10
-369.5944919979339
 20
43.80928432359014
 30
0.0
 10
-374.6192332099362
 20
43.51008563693431
 30
0.0
 10
-379.4312435511039
 20
42.97473938050554
 30
0.0
 10
-383.8868883662035
 20
42.26741873949987
 30
0.0
 10
-387.9682928333449
 20
41.44318545353866
 30
0.0
 10
-391.5214720982648
 20
40.59148985892998
 30
0.0
 10
-394.4504137252734
 20
39.79797521366309
 30
0.0
 10
-396.5097929740803
 20
39.19104869016262
 30
0.0
 10
-397.7848836025552
 20
38.79615478481202
 30
0.0
 10
-397.9404627426819
 20
38.7468542212885
 30
0.0
 10
-398.0193153543602
 20
38.72186707848856
 30
0.0
  0
LINE
  5
AE
330
1F
100
AcDbEntity
  8
0
  6
Continuous
 62
     7
370
    25
100
AcDbLine
 10
-607.0193179472
 20
38.7218670785
 30
0.0
 11
-607.0193179472
 21
238.7218700587
 31
0.0
  0
LINE
  5
AF
330
1F
100
AcDbEntity
  8
0
  6
Continuous
 62
     7
370
    25
100
AcDbLine
 10
-126.0193117483
 20
38.7218670785
 30
0.0
 11
-126.0193117483
 21
238.7218700587
 31
0.0
  0
LINE
  5
B0
330
1F
100
AcDbEntity
  8
0
  6
Continuous
 62
     7
370
    25
100
AcDbLine
 10
-335.0193143411
 20
-52.2781310738
 30
0.0
 11
-398.0193153544
 21
-52.2781310738
 31
0.0
  0
LINE
  5
B1
330
1F
100
AcDbEntity
  8
0
  6
Continuous
 62
     7
370
    25
100
AcDbLine
 10
686.8904959033
 20
38.7218670785
 30
0.0
 11
895.8904984961
 21
38.7218670785
 31
0.0
  0
LINE
  5
B2
330
1F
100
AcDbEntity
  8
0
  6
Continuous
 62
     7
370
    25
100
AcDbLine
 10
414.8904922973
 20
38.7218670785
 30
0.0
 11
623.9129434894
 21
38.7218670785
 31
0.0
  0
LINE
  5
B3
330
1F
100
AcDbEntity
  8
0
  6
Continuous
 62
     7
370
    25
100
AcDbLine
 10
895.8904984961
 20
238.7218700587
 30
0.0
 11
414.8904922973
 21
238.7218700587
 31
0.0
  0
LINE
  5
B4
330
1F
100
AcDbEntity
  8
0
  6
Continuous
 62
     7
370
    25
100
AcDbLine
 10
623.8904948901
 20
38.7288706242
 30
0.0
 11
623.8904948901
 21
-52.2781310738
 31
0.0
  0
LINE
  5
B5
330
1F
100
AcDbEntity
  8
0
  6
Continuous
 62
     7
370
    25
100
AcDbLine
 10
686.8904959033
 20
-52.2781310738
 30
0.0
 11
686.8904959033
 21
38.7218670785
 31
0.0
  0
SPLINE
  5
B6
330
1F
100
AcDbEntity
  8
0
  6
Continuous
 62
     7
370
    25
100
AcDbSpline
210
0.0
220
0.0
230
1.0
 70
     8
 71
     3
 72
    26
 73
    22
 74
     0
 42
0.000000001
 43
0.00000001
 40
0.0
 40
0.0
 40
0.0
 40
0.0
 40
0.0511679930518534
 40
0.1038631846635418
 40
0.1550196450550345
 40
0.2075839268350485
 40
0.2601928216327996
 40
0.314251553864161
 40
0.3680986995431477
 40
0.4236005486900469
 40
0.4757696683937456
 40
0.5295813308919325
 40
0.5797266712274733
 40
0.6312893943620415
 40
0.6822292503109868
 40
0.7345208321489856
 40
0.7877774396199202
 40
0.842549763490007
 40
0.8961521013077973
 40
0.9514333810198201
 40
1.0
 40
1.0
 40
1.0
 40
1.0
 10
686.8904959033432
 20
38.72186707848854
 30
0.0
 10
686.8107659713819
 20
38.74712881227123
 30
0.0
 10
686.6489264277026
 20
38.79840626061934
 30
0.0
 10
685.3505696374821
 20
39.20044795699404
 30
0.0
 10
683.3074917841017
 20
39.80082245596943
 30
0.0
 10
680.5190048014307
 20
40.55820515125556
 30
0.0
 10
677.0084101659413
 20
41.40564605799376
 30
0.0
 10
672.8665132326258
 20
42.25013948474783
 30
0.0
 10
668.1362970449736
 20
43.00281059979981
 30
0.0
 10
663.0661412259635
 20
43.55024149995045
 30
0.0
 10
657.7604190066199
 20
43.83221666511286
 30
0.0
 10
652.5547808250967
 20
43.81740632502478
 30
0.0
 10
647.4598484798421
 20
43.52386023273205
 30
0.0
 10
642.6792363160928
 20
43.00233571598465
 30
0.0
 10
638.1836731318705
 20
42.29623843170933
 30
0.0
 10
634.1023886399702
 20
41.47871943515406
 30
0.0
 10
630.5074030631902
 20
40.62231610272235
 30
0.0
 10
627.5734663494624
 20
39.83006720844435
 30
0.0
 10
625.4182362450019
 20
39.19719780440446
 30
0.0
 10
624.110611546119
 20
38.79156800837967
 30
0.0
 10
623.9759300693014
 20
38.74887441816871
 30
0.0
 10
623.9129434894028
 20
38.72890787715265
 30
0.0
  0
LINE
  5
B7
330
1F
100
AcDbEntity
  8
0
  6
Continuous
 62
     7
370
    25
100
AcDbLine
 10
895.8904984961
 20
238.7218700587
 30
0.0
 11
895.8904984961
 21
38.7218670785
 31
0.0
  0
LINE
  5
B8
330
1F
100
AcDbEntity
  8
0
  6
Continuous
 62
     7
370
    25
100
AcDbLine
 10
414.8904922973
 20
238.7218700587
 30
0.0
 11
414.8904922973
 21
38.7218670785
 31
0.0
  0
LINE
  5
B9
330
1F
100
AcDbEntity
  8
0
  6
Continuous
 62
     7
370
    25
100
AcDbLine
 10
686.8904959033
 20
-52.2781310738
 30
0.0
 11
623.8904948901
 21
-52.2781310738
 31
0.0
  0
LINE
  5
BA
330
1F
100
AcDbEntity
  8
0
  6
Continuous
 62
     7
370
    25
100
AcDbLine
 10
38.1729127676
 20
-174.3824561936
 30
0.0
 11
38.1729127676
 21
-655.3824623925
 31
0.0
  0
LINE
  5
BB
330
1F
100
AcDbEntity
  8
0
  6
Continuous
 62
     7
370
    25
100
AcDbLine
 10
238.1729157479
 20
-655.3824623925
 30
0.0
 11
238.1729157479
 21
-174.3824561936
 31
0.0
  0
LINE
  5
BC
330
1F
100
AcDbEntity
  8
0
  6
Continuous
 62
     7
370
    25
100
AcDbLine
 10
238.1729157479
 20
-655.3824623925
 30
0.0
 11
38.1729127676
 21
-655.3824623925
 31
0.0
  0
LINE
  5
BD
330
1F
100
AcDbEntity
  8
0
  6
Continuous
 62
     7
370
    25
100
AcDbLine
 10
238.1729157479
 20
-174.3824561936
 30
0.0
 11
38.1729127676
 21
-174.3824561936
 31
0.0
  0
LINE
  5
BE
330
1F
100
AcDbEntity
  8
0
  6
Continuous
 62
     7
370
    25
100
AcDbLine
 10
831.0462983709
 20
-338.1644811783
 30
0.0
 11
490.9279322369
 21
-141.8183277546
 31
0.0
  0
LINE
  5
BF
330
1F
100
AcDbEntity
  8
0
  6
Continuous
 62
     7
370
    25
100
AcDbLine
 10
390.9360619681
 20
-315.0281012036
 30
0.0
 11
579.491181404
 21
-423.8786547048
 31
0.0
  0
LINE
  5
C0
330
1F
100
AcDbEntity
  8
0
  6
Continuous
 62
     7
370
    25
100
AcDbLine
 10
642.4911815692
 20
-460.2477806615
 30
0.0
 11
731.0544281021
 21
-511.3742546274
 31
0.0
  0
LINE
  5
C1
330
1F
100
AcDbEntity
  8
0
  6
Continuous
 62
     7
370
    25
100
AcDbLine
 10
579.491181404
 20
-406.1973123848
 30
0.0
 11
579.491181404
 21
-482.5555859691
 31
0.0
  0
LINE
  5
C2
330
1F
100
AcDbEntity
  8
0
  6
Continuous
 62
     7
370
    25
100
AcDbLine
 10
642.491178935
 20
-482.5555859691
 30
0.0
 11
642.491178935
 21
-406.1972211293
 31
0.0
  0
SPLINE
  5
C3
330
1F
100
AcDbEntity
  8
0
  6
Continuous
 62
     7
370
    25
100
AcDbSpline
210
0.0
220
0.0
230
1.0
 70
     8
 71
     3
 72
    12
 73
     8
 74
     0
 42
0.000000001
 43
0.00000001
 40
0.0
 40
0.0
 40
0.0
 40
0.0
 40
0.2046794789897752
 40
0.4154679762719857
 40
0.6201013229283784
 40
0.8303661616782986
 40
1.0
 40
1.0
 40
1.0
 40
1.0
 10
588.717316203887
 20
-395.3919456282614
 30
0.0
 10
587.5728216791475
 20
-396.0973044833364
 30
0.0
 10
585.2496731818247
 20
-397.5290748665225
 30
0.0
 10
582.6285168590404
 20
-399.7709919950025
 30
0.0
 10
580.7347420020081
 20
-402.0530602269832
 30
0.0
 10
579.6435407921502
 20
-404.1934794490514
 30
0.0
 10
579.5840748327146
 20
-405.5800855585751
 30
0.0
 10
579.5575218606792
 20
-406.1992383242861
 30
0.0
  0
SPLINE
  5
C4
330
1F
100
AcDbEntity
  8
0
  6
Continuous
 62
     7
370
    25
100
AcDbSpline
210
0.0
220
0.0
230
1.0
 70
     8
 71
     3
 72
    22
 73
    18
 74
     0
 42
0.000000001
 43
0.00000001
 40
0.0
 40
0.0
 40
0.0
 40
0.0
 40
0.016585541667583
 40
0.0880081627657623
 40
0.1615103773879833
 40
0.2325590998614755
 40
0.3058656520802988
 40
0.3736953380792421
 40
0.443558261983891
 40
0.510468573667779
 40
0.5791799581754277
 40
0.6487529331039823
 40
0.7202142539113527
 40
0.7919974053342003
 40
0.8659467346132039
 40
0.932057407753092
 40
1.0
 40
1.0
 40
1.0
 40
1.0
 10
642.4139382496477
 20
-406.1952693382854
 30
0.0
 10
642.4373888402436
 20
-405.9071281913682
 30
0.0
 10
642.5618251375611
 20
-404.3781595591907
 30
0.0
 10
641.9165547440102
 20
-401.5708030540495
 30
0.0
 10
640.4341249655665
 20
-398.0120306269449
 30
0.0
 10
638.0020448203144
 20
-394.7677449078883
 30
0.0
 10
634.8696174649358
 20
-392.0834098604636
 30
0.0
 10
631.0836033673835
 20
-389.9864463130833
 30
0.0
 10
626.8892413419603
 20
-388.5500381541692
 30
0.0
 10
622.2815412184245
 20
-387.7185303261471
 30
0.0
 10
617.4099839032643
 20
-387.4707641296474
 30
0.0
 10
612.2751054938657
 20
-387.7759914315159
 30
0.0
 10
607.0315965530572
 20
-388.5976054631271
 30
0.0
 10
601.777031231426
 20
-389.8877265949922
 30
0.0
 10
596.9009294152896
 20
-391.516926675938
 30
0.0
 10
592.4398937355031
 20
-393.3736803985939
 30
0.0
 10
589.9694288476855
 20
-394.7130892737213
 30
0.0
 10
588.717316203887
 20
-395.3919456282614
 30
0.0
  0
LWPOLYLINE
  5
C5
330
1F
100
AcDbEntity
  8
0
  6
Continuous
 62
     7
370
    25
100
AcDbPolyline
 90
      107
 70
   128
 43
0.0
 10
440.9319971025
 20
-310.0772968844
 10
445.120942083
 20
-307.5156653704
 10
449.2951732035
 20
-304.6762167503
 10
453.4400279706
 20
-301.5689242597
 10
457.5409492579
 20
-298.2047102019
 10
461.5835287702
 20
-294.5953843543
 10
465.5535696049
 20
-290.7536261035
 10
469.4371277407
 20
-286.6929300761
 10
473.2205607694
 20
-282.427553671
 10
476.8905766289
 20
-277.9724950112
 10
480.43428892
 20
-273.3433880045
 10
483.8392458833
 20
-268.5564977837
 10
487.0934909847
 20
-263.6286370616
 10
490.1855945258
 20
-258.57711138
 10
493.104690522
 20
-253.419673486
 10
495.8405267525
 20
-248.1744396856
 10
498.3834937359
 20
-242.8598244465
 10
500.7246616086
 20
-237.4945008574
 10
502.8558064669
 20
-232.097315459
 10
504.7694419767
 20
-226.687221326
 10
506.4588457157
 20
-221.283226358
 10
507.9180855149
 20
-215.9043081102
 10
509.1420352641
 20
-210.5693651255
 10
510.1263907161
 20
-205.2971363264
 10
510.8677010978
 20
-200.1061363794
 10
511.363358573
 20
-195.0146024606
 10
511.6116193158
 20
-190.0404191628
 10
511.6116193158
 20
-185.2010549981
 10
511.363358573
 20
-180.5135074528
 10
510.8677010978
 20
-175.9942474737
 10
510.1263907161
 20
-171.659146275
 10
509.1420352641
 20
-167.5234300896
 10
507.9180855149
 20
-163.6016294056
 10
506.4588457157
 20
-159.907513568
 10
504.7694419767
 20
-156.4540626386
 10
502.8558064669
 20
-153.253405036
 10
500.7246616086
 20
-150.3167871163
 10
498.3834937359
 20
-147.6545184169
 10
495.8405267525
 20
-145.2759503613
 10
493.104690522
 20
-143.1894458372
 10
490.1855945258
 20
-141.4023244413
 10
487.0934909847
 20
-139.9208655171
 10
483.8392458833
 20
-138.7502762133
 10
480.43428892
 20
-137.8946656227
 10
476.8905766289
 20
-137.3570417377
 10
473.2205607694
 20
-137.1392931955
 10
469.4371277407
 20
-137.2421755845
 10
465.5535696049
 20
-137.6653403389
 10
461.5835287702
 20
-138.4072936689
 10
457.5409492579
 20
-139.4654307764
 10
453.4400279706
 20
-140.8360396534
 10
449.2951732035
 20
-142.5142946137
 10
445.120942083
 20
-144.4943106601
 10
440.9319971025
 20
-146.7691320738
 10
436.7430521221
 20
-149.3307635878
 10
432.5688210016
 20
-152.1702122079
 10
428.4239662345
 20
-155.2775046985
 10
424.3230449471
 20
-158.6417187563
 10
420.2804654348
 20
-162.2510446038
 10
416.3104246001
 20
-166.0928028546
 10
412.4268664643
 20
-170.1534988821
 10
408.6434334356
 20
-174.4188752872
 10
404.9734175761
 20
-178.873933947
 10
401.429705285
 20
-183.5030409537
 10
398.0247483217
 20
-188.2899311744
 10
394.7705032203
 20
-193.2177918966
 10
391.6783996793
 20
-198.2693175782
 10
388.759303683
 20
-203.4267554721
 10
386.0234674525
 20
-208.6719892725
 10
383.4805004691
 20
-213.9866045117
 10
381.1393325964
 20
-219.3519281008
 10
379.0081877381
 20
-224.7491134991
 10
377.0945522284
 20
-230.1592076321
 10
375.4051484894
 20
-235.5632026002
 10
373.9459086901
 20
-240.942120848
 10
372.721958941
 20
-246.2770638327
 10
371.7376034889
 20
-251.5492926317
 10
370.9962931072
 20
-256.7402925788
 10
370.500635632
 20
-261.8318264976
 10
370.2523748892
 20
-266.8060097953
 10
370.2523748892
 20
-271.64537396
 10
370.500635632
 20
-276.3329215054
 10
370.9962931072
 20
-280.8521814845
 10
371.7376034889
 20
-285.1872826831
 10
372.721958941
 20
-289.3229988686
 10
373.9459086901
 20
-293.2447995526
 10
375.4051484894
 20
-296.9389153901
 10
377.0945522284
 20
-300.3923663196
 10
379.0081877381
 20
-303.5930239222
 10
381.1393325964
 20
-306.5296418419
 10
383.4805004691
 20
-309.1919105412
 10
386.0234674525
 20
-311.5704785969
 10
388.759303683
 20
-313.6569831209
 10
391.6783996793
 20
-315.4441045169
 10
394.7705032203
 20
-316.925563441
 10
398.0247483217
 20
-318.0961527449
 10
401.429705285
 20
-318.9517633354
 10
404.9734175761
 20
-319.4893872204
 10
408.6434334356
 20
-319.7071357626
 10
412.4268664643
 20
-319.6042533737
 10
416.3104246001
 20
-319.1810886193
 10
420.2804654348
 20
-318.4391352893
 10
424.3230449471
 20
-317.3809981817
 10
428.4239662345
 20
-316.0103893047
 10
432.5688210016
 20
-314.3321343445
 10
436.7430521221
 20
-312.352118298
 10
440.9319971025
 20
-310.0772968844
  0
LWPOLYLINE
  5
C6
330
1F
100
AcDbEntity
  8
0
  6
Continuous
 62
     7
370
    25
100
AcDbPolyline
 90
       41
 70
   128
 43
0.0
 10
781.0503632365
 20
-506.4234503082
 10
785.239308217
 20
-503.8618187942
 10
789.4135393375
 20
-501.022370174
 10
793.5583941046
 20
-497.9150776835
 10
797.6593153919
 20
-494.5508636257
 10
801.7018949042
 20
-490.9415377781
 10
805.6719357389
 20
-487.0997795273
 10
809.5554938747
 20
-483.0390834998
 10
813.3389269035
 20
-478.7737070948
 10
817.0089427629
 20
-474.318648435
 10
820.552655054
 20
-469.6895414282
 10
823.9576120174
 20
-464.9026512075
 10
827.2118571188
 20
-459.9747904853
 10
830.3039606598
 20
-454.9232648038
 10
833.223056656
 20
-449.7658269098
 10
835.9588928865
 20
-444.5205931094
 10
838.5018598699
 20
-439.2059778702
 10
840.8430277426
 20
-433.8406542812
 10
842.9741726009
 20
-428.4434688828
 10
844.8878081107
 20
-423.0333747498
 10
846.5772118497
 20
-417.6293797818
 10
848.0364516489
 20
-412.250461534
 10
849.2604013981
 20
-406.9155185492
 10
850.2447568501
 20
-401.6432897502
 10
850.9860672318
 20
-396.4522898031
 10
851.481724707
 20
-391.3607558843
 10
851.7299854498
 20
-386.3865725866
 10
851.7299854498
 20
-381.5472084219
 10
851.481724707
 20
-376.8596608766
 10
850.9860672318
 20
-372.3404008975
 10
850.2447568501
 20
-368.0052996988
 10
849.2604013981
 20
-363.8695835134
 10
848.0364516489
 20
-359.9477828294
 10
846.5772118497
 20
-356.2536669918
 10
844.8878081107
 20
-352.8002160623
 10
842.9741726009
 20
-349.5995584597
 10
840.8430277426
 20
-346.66294054
 10
838.5018598699
 20
-344.0006718407
 10
835.9588928865
 20
-341.622103785
 10
833.223056656
 20
-339.535599261
 10
831.0462983709
 20
-338.1644811783
  0
LWPOLYLINE
  5
C7
330
1F
100
AcDbEntity
  8
0
  6
Continuous
 62
     7
370
    25
100
AcDbPolyline
 90
       15
 70
   128
 43
0.0
 10
731.0544281021
 20
-511.3742546274
 10
731.7967658133
 20
-511.7902579406
 10
734.8888693543
 20
-513.2717168648
 10
738.1431144557
 20
-514.4423061687
 10
741.548071419
 20
-515.2979167592
 10
745.0917837101
 20
-515.8355406442
 10
748.7617995696
 20
-516.0532891864
 10
752.5452325983
 20
-515.9504067974
 10
756.4287907341
 20
-515.527242043
 10
760.3988315688
 20
-514.7852887131
 10
764.4414110811
 20
-513.7271516055
 10
768.5423323685
 20
-512.3565427285
 10
772.6871871356
 20
-510.6782877682
 10
776.8614182561
 20
-508.6982717218
 10
781.0503632365
 20
-506.4234503082
  0
LWPOLYLINE
  5
C8
330
1F
100
AcDbEntity
  8
0
  6
Continuous
 62
     7
370
    25
100
AcDbPolyline
 90
      100
 70
   128
 43
0.0
 10
440.9319971025
 20
-300.3604609991
 10
444.8830603309
 20
-297.9347260273
 10
448.818214441
 20
-295.2290958723
 10
452.7216125472
 20
-292.2544586857
 10
456.5775394725
 20
-289.0228007398
 10
460.3704660789
 20
-285.547126394
 10
464.0851207192
 20
-281.8414350976
 10
467.7065465307
 20
-277.9206457291
 10
471.2201607036
 20
-273.8005441298
 10
474.6118150679
 20
-269.497729877
 10
477.8678540445
 20
-265.0295219922
 10
480.9751620611
 20
-260.4139133176
 10
483.9212320404
 20
-255.6694883928
 10
486.6942022787
 20
-250.8153534953
 10
489.2828985927
 20
-245.8710545147
 10
491.6769080767
 20
-240.8564978716
 10
493.8665843709
 20
-235.7918744714
 10
495.843108247
 20
-230.6975851852
 10
497.5985297558
 20
-225.5941343882
 10
499.1257734952
 20
-220.5020752077
 10
500.4186912935
 20
-215.4419106673
 10
501.4720727467
 20
-210.4340206834
 10
502.2816873648
 20
-205.4985639699
 10
502.8442634987
 20
-200.6554187198
 10
503.1575462921
 20
-195.9240814691
 10
503.2202608027
 20
-191.3236114846
 10
503.0321699545
 20
-186.8725240193
 10
502.5940218541
 20
-182.5887475312
 10
501.9075814007
 20
-178.4895311003
 10
500.975609213
 20
-174.5913823536
 10
499.8018721656
 20
-170.9099899941
 10
498.3910801686
 20
-167.4601880528
 10
496.7489230468
 20
-164.2558600742
 10
494.8820073186
 20
-161.3099132544
 10
492.7978561965
 20
-158.6342084786
 10
490.5048621716
 20
-156.2395146887
 10
488.0122554038
 20
-154.1354815041
 10
485.3300721114
 20
-152.3305814231
 10
482.4691097902
 20
-150.8320809213
 10
479.4408956032
 20
-149.6460069883
 10
476.2576205263
 20
-148.7771425586
 10
472.9320998357
 20
-148.2289854432
 10
469.4777256925
 20
-148.0037391992
 10
465.9084091909
 20
-148.1023222501
 10
462.2385210891
 20
-148.5243230131
 10
458.4828391259
 20
-149.2680485636
 10
454.6564861174
 20
-150.3305056175
 10
450.7748687123
 20
-151.707411553
 10
446.8536187816
 20
-153.3932282448
 10
442.9085237774
 20
-155.3811596818
 10
438.9554704276
 20
-157.6632088059
 10
435.0103754234
 20
-160.2301871067
 10
431.0891254928
 20
-163.0717492169
 10
427.2075080877
 20
-166.1764633434
 10
423.3811550791
 20
-169.5318194373
 10
419.6254731159
 20
-173.1243119826
 10
415.9555850141
 20
-176.9394738313
 10
412.3862685125
 20
-180.9619358942
 10
408.9318943693
 20
-185.1755176299
 10
405.6063736787
 20
-189.5632392072
 10
402.4230986019
 20
-194.107434809
 10
399.3948844148
 20
-198.7898104215
 10
396.5339220936
 20
-203.5915077089
 10
393.8517388012
 20
-208.4931907024
 10
391.3591320334
 20
-213.4751264032
 10
389.0661380086
 20
-218.517254742
 10
386.9819868864
 20
-223.5992691837
 10
385.1150711582
 20
-228.7007110223
 10
383.4729140364
 20
-233.8010332564
 10
382.0621220395
 20
-238.8797009659
 10
380.888384992
 20
-243.9162612749
 10
379.9564128043
 20
-248.8904422055
 10
379.269972351
 20
-253.7822059139
 10
378.8318242506
 20
-258.5718574309
 10
378.6437334024
 20
-263.2401099671
 10
378.7064479129
 20
-267.768171319
 10
379.0197307063
 20
-272.1377999556
 10
379.5823068402
 20
-276.3314086273
 10
380.3919214583
 20
-280.3321041996
 10
381.4453029115
 20
-284.1237858454
 10
382.7382207099
 20
-287.6911792704
 10
384.2654644492
 20
-291.0199203627
 10
386.020885958
 20
-294.0966046265
 10
387.9974098342
 20
-296.9088480201
 10
390.1870861283
 20
-299.4453249842
 10
392.5810956123
 20
-301.6958171118
 10
395.1697919264
 20
-303.6512709475
 10
397.9427621646
 20
-305.303802556
 10
400.8888321439
 20
-306.6467674849
 10
403.9961401605
 20
-307.6747546882
 10
407.2521791371
 20
-308.3836199904
 10
410.6438335014
 20
-308.7705134669
 10
414.1574476743
 20
-308.8338824921
 10
417.7788734858
 20
-308.5734626183
 10
421.4935281261
 20
-307.9903049576
 10
425.2864547325
 20
-307.086759458
 10
429.1423816578
 20
-305.8664589385
 10
433.045779764
 20
-304.334328601
 10
436.9809338741
 20
-302.4965265301
 10
440.9319971025
 20
-300.3604609991
  0
LWPOLYLINE
  5
C9
330
1F
100
AcDbEntity
  8
0
  6
Continuous
 62
     7
370
    25
100
AcDbPolyline
 90
       56
 70
   128
 43
0.0
 10
630.5780376628
 20
-493.8628381184
 10
632.6830992194
 20
-492.5002049675
 10
634.505372874
 20
-491.0079284528
 10
636.021103609
 20
-489.4054626156
 10
637.2105304793
 20
-487.7136981586
 10
638.0581483839
 20
-485.9546896736
 10
638.5529062873
 20
-484.1513693742
 10
638.6883570388
 20
-482.3272446709
 10
638.4627304708
 20
-480.5060974562
 10
637.8789702771
 20
-478.7116678043
 10
636.9446872567
 20
-476.9673502152
 10
635.6720611903
 20
-475.2958830159
 10
634.0776818018
 20
-473.7190573407
 10
632.1823334145
 20
-472.2574301034
 10
630.0107275405
 20
-470.9300540524
 10
627.5911721683
 20
-469.754235152
 10
624.9552091515
 20
-468.7453019613
 10
622.1372053349
 20
-467.916406093
 10
619.1738959775
 20
-467.2783544398
 10
616.1039116294
 20
-466.8394653036
 10
612.9672759917
 20
-466.6054594775
 10
609.8048780928
 20
-466.5793882031
 10
606.6579454532
 20
-466.7615905917
 10
603.5675040785
 20
-467.1496921036
 10
600.5738397706
 20
-467.7386326809
 10
597.7159834745
 20
-468.5207357477
 10
595.0311890532
 20
-469.4858043937
 10
592.5544564184
 20
-470.6212567616
 10
590.3180756539
 20
-471.9122918965
 10
588.3512013481
 20
-473.3420792127
 10
586.6794722852
 20
-474.8919780416
 10
585.3246832425
 20
-476.5417833642
 10
584.3044977009
 20
-478.2699889833
 10
583.6322133203
 20
-480.0540628138
 10
583.3165953281
 20
-481.8707483574
 10
583.3617569934
 20
-483.6963618052
 10
583.7671108944
 20
-485.5071030161
 10
584.5273715529
 20
-487.2793672566
 10
585.6326291911
 20
-488.9900493357
 10
587.068474526
 20
-490.6168483116
 10
588.8161874421
 20
-492.1385573708
 10
590.8529862096
 20
-493.5353369558
 10
593.1523181079
 20
-494.7889783424
 10
595.68420508
 20
-495.8831396765
 10
598.415643221
 20
-496.8035553059
 10
601.3110230539
 20
-497.5382266961
 10
604.3325971366
 20
-498.0775768034
 10
607.4409772637
 20
-498.41457439
 10
610.5956385817
 20
-498.5448258352
 10
613.7554576203
 20
-498.4666317808
 10
616.8792384692
 20
-498.1810141227
 10
619.9262606873
 20
-497.6916947219
 10
622.8568002115
 20
-497.0050532052
 10
625.6326532283
 20
-496.130040477
 10
628.2176320586
 20
-495.0780642882
 10
630.5780376628
 20
-493.8628381184
  0
LWPOLYLINE
  5
CA
330
1F
100
AcDbEntity
  8
0
  6
Continuous
 62
     7
370
    25
100
AcDbPolyline
 90
       60
 70
   128
 43
0.0
 10
633.2650441351
 20
-495.4140139371
 10
635.506425722
 20
-493.9744017541
 10
637.4700381745
 20
-492.4054089044
 10
639.1336352006
 20
-490.7248140218
 10
640.4783672808
 20
-488.9516586637
 10
641.4889980002
 20
-487.1060327053
 10
642.1540752697
 20
-485.2088492791
 10
642.4660646816
 20
-483.2816020369
 10
642.4214324861
 20
-481.3461302044
 10
642.0206804942
 20
-479.4243612068
 10
641.2683539799
 20
-477.5380704015
 10
640.1729738507
 20
-475.7086305462
 10
638.7469523535
 20
-473.9567684904
 10
637.0064475363
 20
-472.3023351725
 10
634.9711793498
 20
-470.7640747622
 10
632.6642076354
 20
-469.3594174204
 10
630.1116722473
 20
-468.1042775715
 10
627.3424942376
 20
-467.0128768393
 10
624.3880492185
 20
-466.0975813348
 10
621.2818113368
 20
-465.3687615158
 10
618.0589788084
 20
-464.8346748574
 10
614.7560633166
 20
-464.5013732801
 10
611.4104912628
 20
-464.3726341498
 10
608.0601671519
 20
-464.4499150367
 10
604.7430534405
 20
-464.7323392697
 10
601.4967326051
 20
-465.2167084815
 10
598.3579883079
 20
-465.897534543
 10
595.3623826107
 20
-466.7671026715
 10
592.543858544
 20
-467.8155609604
 10
589.934347696
 20
-469.0310283004
 10
587.5634206909
 20
-470.3997353267
 10
585.45794137
 20
-471.9061738738
 10
583.6417615571
 20
-473.5332731838
 10
582.1354621673
 20
-475.262599543
 10
580.9561090522
 20
-477.0745580572
 10
580.1170660557
 20
-478.9486191849
 10
579.6278399262
 20
-480.8635481701
 10
579.4939709986
 20
-482.7976491108
 10
579.7169778766
 20
-484.7290067474
 10
580.2943357005
 20
-486.6357392748
 10
581.2195011722
 20
-488.4962408916
 10
582.4819909215
 20
-490.2894338515
 10
584.0675010326
 20
-491.9949986571
 10
585.958067399
 20
-493.5936110947
 10
588.1322689673
 20
-495.0671584089
 10
590.565470493
 20
-496.3989448317
 10
593.2301043974
 20
-497.5738801466
 10
596.095977485
 20
-498.5786521904
 10
599.1306203835
 20
-499.4018768779
 10
602.2996465329
 20
-500.0342263665
 10
605.5671520865
 20
-500.4685352187
 10
608.8961143307
 20
-500.6998844193
 10
612.2488131531
 20
-500.7256500373
 10
615.5872650237
 20
-500.5455423835
 10
618.8736391945
 20
-500.1616014482
 10
622.0707035348
 20
-499.5781767525
 10
625.1422315112
 20
-498.8018794465
 10
628.0534226685
 20
-497.8415053255
 10
630.7712924877
 20
-496.7079359853
 10
633.2650441351
 20
-495.4140139371
  0
ENDSEC
  0
SECTION
  2
OBJECTS
  0
DICTIONARY
  5
C
330
0
100
AcDbDictionary
281
     1
  3
ACAD_GROUP
350
D
  3
ACAD_LAYOUT
350
1A
  3
ACAD_MLINESTYLE
350
17
  3
ACAD_PLOTSETTINGS
350
19
  3
ACAD_PLOTSTYLENAME
350
E
  3
ACAD_SCALELIST
350
47
  0
DICTIONARY
  5
D
102
{ACAD_REACTORS
330
C
102
}
330
C
100
AcDbDictionary
281
     1
  0
DICTIONARY
  5
1A
102
{ACAD_REACTORS
330
C
102
}
330
C
100
AcDbDictionary
281
     1
  3
Layout1
350
1E
  3
Layout2
350
26
  3
Model
350
22
  0
DICTIONARY
  5
17
102
{ACAD_REACTORS
330
C
102
}
330
C
100
AcDbDictionary
281
     1
  3
Standard
350
18
  0
DICTIONARY
  5
19
102
{ACAD_REACTORS
330
C
102
}
330
C
100
AcDbDictionary
281
     1
  0
ACDBDICTIONARYWDFLT
  5
E
102
{ACAD_REACTORS
330
C
102
}
330
C
100
AcDbDictionary
281
     1
  3
Normal
350
F
100
AcDbDictionaryWithDefault
340
F
  0
DICTIONARY
  5
47
102
{ACAD_REACTORS
330
C
102
}
330
C
100
AcDbDictionary
281
     1
  3
A0
350
48
  3
A1
350
49
  3
A2
350
4A
  3
A3
350
4B
  3
A4
350
4C
  3
A5
350
4D
  3
A6
350
4E
  3
A7
350
4F
  3
A8
350
50
  3
A9
350
51
  3
B0
350
52
  3
B1
350
53
  3
B2
350
54
  3
B3
350
55
  3
B4
350
56
  3
B5
350
57
  3
B6
350
58
  3
B7
350
59
  3
B8
350
5A
  3
B9
350
5B
  3
C0
350
5C
  3
C1
350
5D
  3
C2
350
5E
  3
C3
350
5F
  3
C4
350
60
  3
C5
350
61
  3
C6
350
62
  3
C7
350
63
  3
C8
350
64
  3
C9
350
65
  3
D0
350
66
  3
D1
350
67
  3
D2
350
68
  0
LAYOUT
  5
1E
102
{ACAD_REACTORS
330
1A
102
}
330
1A
100
AcDbPlotSettings
  1

  2
none_device
  4

  6

 40
0.0
 41
0.0
 42
0.0
 43
0.0
 44
0.0
 45
0.0
 46
0.0
 47
0.0
 48
0.0
 49
0.0
140
0.0
141
0.0
142
1.0
143
1.0
 70
   688
 72
     1
 73
     0
 74
     5
  7

 75
    16
147
1.0
148
0.0
149
0.0
100
AcDbLayout
  1
Layout1
 70
     1
 71
     1
 10
0.0
 20
0.0
 11
420.0
 21
297.0
 12
0.0
 22
0.0
 32
0.0
 14
1.0000000000E+20
 24
1.0000000000E+20
 34
1.0000000000E+20
 15
-1.0000000000E+20
 25
-1.0000000000E+20
 35
-1.0000000000E+20
146
0.0
 13
0.0
 23
0.0
 33
0.0
 16
1.0
 26
0.0
 36
0.0
 17
0.0
 27
1.0
 37
0.0
 76
     0
330
1B
  0
LAYOUT
  5
26
102
{ACAD_REACTORS
330
1A
102
}
330
1A
100
AcDbPlotSettings
  1

  2
none_device
  4

  6

 40
0.0
 41
0.0
 42
0.0
 43
0.0
 44
0.0
 45
0.0
 46
0.0
 47
0.0
 48
0.0
 49
0.0
140
0.0
141
0.0
142
1.0
143
1.0
 70
   688
 72
     1
 73
     0
 74
     5
  7

 75
    16
147
1.0
148
0.0
149
0.0
100
AcDbLayout
  1
Layout2
 70
     1
 71
     2
 10
0.0
 20
0.0
 11
0.0
 21
0.0
 12
0.0
 22
0.0
 32
0.0
 14
0.0
 24
0.0
 34
0.0
 15
0.0
 25
0.0
 35
0.0
146
0.0
 13
0.0
 23
0.0
 33
0.0
 16
1.0
 26
0.0
 36
0.0
 17
0.0
 27
1.0
 37
0.0
 76
     0
330
23
  0
LAYOUT
  5
22
102
{ACAD_REACTORS
330
1A
102
}
330
1A
100
AcDbPlotSettings
  1

  2
none_device
  4
Letter_(8.50_x_11.00_Inches)
  6

 40
6.35
 41
6.35
 42
6.35000508
 43
6.35000508
 44
215.9
 45
279.4
 46
0.0
 47
0.0
 48
0.0
 49
0.0
140
0.0
141
0.0
142
1.0
143
1.0
 70
  1712
 72
     1
 73
     0
 74
     0
  7

 75
     0
147
1.0
148
0.0
149
0.0
100
AcDbLayout
  1
Model
 70
     1
 71
     0
 10
0.0
 20
0.0
 11
279.4
 21
215.9
 12
0.0
 22
0.0
 32
0.0
 14
0.0
 24
0.0
 34
0.0
 15
279.4
 25
215.9
 35
0.0
146
0.0
 13
0.0
 23
0.0
 33
0.0
 16
1.0
 26
0.0
 36
0.0
 17
0.0
 27
1.0
 37
0.0
 76
     0
330
1F
331
29
  0
MLINESTYLE
  5
18
102
{ACAD_REACTORS
330
17
102
}
330
17
100
AcDbMlineStyle
  2
Standard
 70
     0
  3

 62
   256
 51
90.0
 52
90.0
 71
     2
 49
0.5
 62
   256
  6
BYLAYER
 49
-0.5
 62
   256
  6
BYLAYER
  0
ACDBPLACEHOLDER
  5
F
102
{ACAD_REACTORS
330
E
102
}
330
E
  0
SCALE
  5
48
102
{ACAD_REACTORS
330
47
102
}
330
47
100
AcDbScale
 70
     0
300
1:1
140
1.0
141
1.0
290
     1
  0
SCALE
  5
49
102
{ACAD_REACTORS
330
47
102
}
330
47
100
AcDbScale
 70
     0
300
1:2
140
1.0
141
2.0
290
     0
  0
SCALE
  5
4A
102
{ACAD_REACTORS
330
47
102
}
330
47
100
AcDbScale
 70
     0
300
1:4
140
1.0
141
4.0
290
     0
  0
SCALE
  5
4B
102
{ACAD_REACTORS
330
47
102
}
330
47
100
AcDbScale
 70
     0
300
1:5
140
1.0
141
5.0
290
     0
  0
SCALE
  5
4C
102
{ACAD_REACTORS
330
47
102
}
330
47
100
AcDbScale
 70
     0
300
1:8
140
1.0
141
8.0
290
     0
  0
SCALE
  5
4D
102
{ACAD_REACTORS
330
47
102
}
330
47
100
AcDbScale
 70
     0
300
1:10
140
1.0
141
10.0
290
     0
  0
SCALE
  5
4E
102
{ACAD_REACTORS
330
47
102
}
330
47
100
AcDbScale
 70
     0
300
1:16
140
1.0
141
16.0
290
     0
  0
SCALE
  5
4F
102
{ACAD_REACTORS
330
47
102
}
330
47
100
AcDbScale
 70
     0
300
1:20
140
1.0
141
20.0
290
     0
  0
SCALE
  5
50
102
{ACAD_REACTORS
330
47
102
}
330
47
100
AcDbScale
 70
     0
300
1:30
140
1.0
141
30.0
290
     0
  0
SCALE
  5
51
102
{ACAD_REACTORS
330
47
102
}
330
47
100
AcDbScale
 70
     0
300
1:40
140
1.0
141
40.0
290
     0
  0
SCALE
  5
52
102
{ACAD_REACTORS
330
47
102
}
330
47
100
AcDbScale
 70
     0
300
1:50
140
1.0
141
50.0
290
     0
  0
SCALE
  5
53
102
{ACAD_REACTORS
330
47
102
}
330
47
100
AcDbScale
 70
     0
300
1:100
140
1.0
141
100.0
290
     0
  0
SCALE
  5
54
102
{ACAD_REACTORS
330
47
102
}
330
47
100
AcDbScale
 70
     0
300
2:1
140
2.0
141
1.0
290
     0
  0
SCALE
  5
55
102
{ACAD_REACTORS
330
47
102
}
330
47
100
AcDbScale
 70
     0
300
4:1
140
4.0
141
1.0
290
     0
  0
SCALE
  5
56
102
{ACAD_REACTORS
330
47
102
}
330
47
100
AcDbScale
 70
     0
300
8:1
140
8.0
141
1.0
290
     0
  0
SCALE
  5
57
102
{ACAD_REACTORS
330
47
102
}
330
47
100
AcDbScale
 70
     0
300
10:1
140
10.0
141
1.0
290
     0
  0
SCALE
  5
58
102
{ACAD_REACTORS
330
47
102
}
330
47
100
AcDbScale
 70
     0
300
100:1
140
100.0
141
1.0
290
     0
  0
SCALE
  5
59
102
{ACAD_REACTORS
330
47
102
}
330
47
100
AcDbScale
 70
     0
300
1/128" = 1'-0"
140
0.0078125
141
12.0
290
     0
  0
SCALE
  5
5A
102
{ACAD_REACTORS
330
47
102
}
330
47
100
AcDbScale
 70
     0
300
1/64" = 1'-0"
140
0.015625
141
12.0
290
     0
  0
SCALE
  5
5B
102
{ACAD_REACTORS
330
47
102
}
330
47
100
AcDbScale
 70
     0
300
1/32" = 1'-0"
140
0.03125
141
12.0
290
     0
  0
SCALE
  5
5C
102
{ACAD_REACTORS
330
47
102
}
330
47
100
AcDbScale
 70
     0
300
1/16" = 1'-0"
140
0.0625
141
12.0
290
     0
  0
SCALE
  5
5D
102
{ACAD_REACTORS
330
47
102
}
330
47
100
AcDbScale
 70
     0
300
3/32" = 1'-0"
140
0.09375
141
12.0
290
     0
  0
SCALE
  5
5E
102
{ACAD_REACTORS
330
47
102
}
330
47
100
AcDbScale
 70
     0
300
1/8" = 1'-0"
140
0.125
141
12.0
290
     0
  0
SCALE
  5
5F
102
{ACAD_REACTORS
330
47
102
}
330
47
100
AcDbScale
 70
     0
300
3/16" = 1'-0"
140
0.1875
141
12.0
290
     0
  0
SCALE
  5
60
102
{ACAD_REACTORS
330
47
102
}
330
47
100
AcDbScale
 70
     0
300
1/4" = 1'-0"
140
0.25
141
12.0
290
     0
  0
SCALE
  5
61
102
{ACAD_REACTORS
330
47
102
}
330
47
100
AcDbScale
 70
     0
300
3/8" = 1'-0"
140
0.375
141
12.0
290
     0
  0
SCALE
  5
62
102
{ACAD_REACTORS
330
47
102
}
330
47
100
AcDbScale
 70
     0
300
1/2" = 1'-0"
140
0.5
141
12.0
290
     0
  0
SCALE
  5
63
102
{ACAD_REACTORS
330
47
102
}
330
47
100
AcDbScale
 70
     0
300
3/4" = 1'-0"
140
0.75
141
12.0
290
     0
  0
SCALE
  5
64
102
{ACAD_REACTORS
330
47
102
}
330
47
100
AcDbScale
 70
     0
300
1" = 1'-0"
140
1.0
141
12.0
290
     0
  0
SCALE
  5
65
102
{ACAD_REACTORS
330
47
102
}
330
47
100
AcDbScale
 70
     0
300
1-1/2" = 1'-0"
140
1.5
141
12.0
290
     0
  0
SCALE
  5
66
102
{ACAD_REACTORS
330
47
102
}
330
47
100
AcDbScale
 70
     0
300
3" = 1'-0"
140
3.0
141
12.0
290
     0
  0
SCALE
  5
67
102
{ACAD_REACTORS
330
47
102
}
330
47
100
AcDbScale
 70
     0
300
6" = 1'-0"
140
6.0
141
12.0
290
     0
  0
SCALE
  5
68
102
{ACAD_REACTORS
330
47
102
}
330
47
100
AcDbScale
 70
     0
300
1'-0" = 1'-0"
140
12.0
141
12.0
290
     0
  0
ENDSEC
  0
EOF
